Das Bergvolk

Kampagne: Der Berg-Clan
Thema: Klassisch
762.000 EP
1 Spieler
22 Taktikkarten
Kartenarchiv
Bonus-EP:
Belohnungen
Slot 1

350 (100%)

Slot 2

1 (1%)

1 (1%)

Slot 3

1 (1%)

1 (1%)

Slot 4

1 (1%)

1 (1%)

1 (1%)

Slot 5

1 (1%)

1 (1%)

1 (1%)

1 (1%)

1 (1%)

Slot 6

1 (1%)

Slot 7

1 (100%)

Slot 8

762000

762

letztes Aktualisierung: 28.06.2018 - 10:53 Uhr

Filter

Uploader
Besonderheiten
Generäle
 
Kenoraj: Kenorajs Bergvolk
keine Bewertung vorhanden
- Schwierigkeit
- Angaben
- Grafik
- Verständnis
Packliste 310 150 900 300 900 2.560 Packliste 310 150 900 300 900 2.560
2x
Jüngerer Zwillingsgeneral
---1--3-33---3-3--23
1x
Champion Nusala
-1----3-12---3333-2-
1x
Champion Nusala
---1--3-3-1--3-31123
1x
Champion Vargus
-1----3--3---332-123
2x
Standhafte Generalin
---1--3--3-3--33--23
1x
General Sylvana
-1----3-33---3-3--23
1x
Vermummter General
-1----3--3---3-3-323
Klicks: 0 - 0 - 35
erstellt: 30.09.2021 - 15:58
Update: 03.10.2021 - 15:24
Versionen:
1x
Generalmajor
-1----31-33--3-2--23
1x
Champion Vargus
-1----31-33--3-2--23
1x
Champion Anslem
-1----31-33--3-2--23
1x
Champion Nusala
-1----3---233--23-13
4-18x
Meister der Kampfkunst
---1----3-333--13-13
1-2x
Veteran
---1----3-333--13-13
1x
Mary Christmas
--1---3--33--312--23
1x
Generalmajor
-1----31-33--3-2--23
1x
Champion Vargus
-1----31-33--3-2--23
1x
Champion Anslem
-1----31-33--3-2--23
2x
Champion Nusala
-1----3---233--23-13
11-24x
Meister der Kampfkunst
---1----3-333--13-13
2x
Veteran
---1----3-333--13-13
 
bogini: bk4 MaxEP Zitterbart Boris Standhafte
keine Bewertung vorhanden
- Schwierigkeit
- Angaben
- Grafik
- Verständnis
Klicks: 1 - 0 - 2600
948.427
erstellt: 16.12.2020 - 13:11
Update: 05.07.2021 - 20:30
 
bogini: bk4 Boris Mary jZw
keine Bewertung vorhanden
- Schwierigkeit
- Angaben
- Grafik
- Verständnis
Klicks: 1 - 0 - 1392
erstellt: 17.11.2020 - 06:20
Update: 17.11.2020 - 06:20
 
bogini: Bergvolk mit Boris Skills und FKU als Option
keine Bewertung vorhanden
- Schwierigkeit
- Angaben
- Grafik
- Verständnis
1x
Generalmajor
-1----31-33--3-2--23
1x
Champion Vargus
-1----31-33--3-2--23
1x
Champion Anslem
-1----31-33--3-2--23
1x
Champion Nusala
-1----3---233--23-13
4-18x
Meister der Kampfkunst
---1----3-333--13-13
1-2x
Veteran
---1----3-333--13-13
1x
Mary Christmas
--1---3--33--312--23
Klicks: 1 - 0 - 8158
Kommentare: 4
erstellt: 22.05.2019 - 20:55
Update: 17.11.2020 - 06:06
 
bogini: bk4 Bergvolk mit Skills ohne Blocks
keine Bewertung vorhanden
- Schwierigkeit
- Angaben
- Grafik
- Verständnis
1x
Generalmajor
-1----31-33--3-2--23
1x
Champion Vargus
-1----31-33--3-2--23
1x
Champion Anslem
-1----31-33--3-2--23
2x
Champion Nusala
-1----3---233--23-13
11-24x
Meister der Kampfkunst
---1----3-333--13-13
2x
Veteran
---1----3-333--13-13
Klicks: 1 - 0 - 4282
Kommentare: 2
erstellt: 06.02.2019 - 18:17
Update: 17.11.2020 - 06:05
 
jonnyhopp@web.de: Das Bergvolk - nur schnell das Nötigste
keine Bewertung vorhanden
- Schwierigkeit
- Angaben
- Grafik
- Verständnis
1x
Champion Nusala
---1--31-32---23--33
1-4x
Champion Vargus
-1----32-3---3-3--33
1x
Einsamer General
---1--3--32--3-3--33
4x
General Sylvana
-1----3-3-3--3-3--23
1-4x
Jüngerer Zwillingsgeneral
---1--3-3----2-33-33
1-7x
Älterer Zwillingsgeneral
-1----3--3---323--33
Klicks: 1 - 0 - 284
erstellt: 16.05.2021 - 11:28
Update: 16.05.2021 - 11:30
Versionen:
 
Merlin-tkn1971: Bergvolk NEU 2020
keine Bewertung vorhanden
- Schwierigkeit
- Angaben
- Grafik
- Verständnis
Klicks: 0 - 0 - 267
erstellt: 12.03.2021 - 13:53
Update: 12.03.2021 - 13:53
 
Merlin-tkn1971: Gebirgsclan 4 - Das Bergvolk aktualisiert 15-02-2019
keine Bewertung vorhanden
- Schwierigkeit
- Angaben
- Grafik
- Verständnis
Klicks: 0 - 0 - 154
erstellt: 12.03.2021 - 13:53
Update: 12.03.2021 - 13:53
Versionen:
1x
Champion Nusala
---1--3-33---3-23--3
4x
Jüngerer Zwillingsgeneral
---1--3--3---313-313
1x
Älterer Zwillingsgeneral
--1---3-33---3-2--33
1x
General Zitterbart
--1---3-3-3---22-322
2x
Standhafte Generalin
 
Polyticker: mit FK JZW und Zitterbarth
keine Bewertung vorhanden
- Schwierigkeit
- Angaben
- Grafik
- Verständnis
1x
Champion Nusala
---1--3-33---3-23--3
4x
Jüngerer Zwillingsgeneral
---1--3--3---313-313
1x
Älterer Zwillingsgeneral
--1---3-33---3-2--33
1x
General Zitterbart
--1---3-3-3---22-322
2x
Standhafte Generalin
Klicks: 0 - 0 - 609
erstellt: 05.01.2021 - 16:27
Update: 02.03.2021 - 07:55
 
Polyticker: Taktik und Übersicht
keine Bewertung vorhanden
- Schwierigkeit
- Angaben
- Grafik
- Verständnis
Klicks: 0 - 0 - 461
erstellt: 31.07.2020 - 21:31
Update: 05.01.2021 - 16:30
 
Polyticker: GM - Version ungeskillt
keine Bewertung vorhanden
- Schwierigkeit
- Angaben
- Grafik
- Verständnis
Klicks: 0 - 0 - 416
erstellt: 27.08.2020 - 12:11
Update: 05.01.2021 - 16:30
 
Polyticker: Alle Genis - geskillt mit Alternativangriffen
keine Bewertung vorhanden
- Schwierigkeit
- Angaben
- Grafik
- Verständnis
Klicks: 2 - 0 - 356
erstellt: 27.08.2020 - 12:23
Update: 05.01.2021 - 16:30
 
scrumby: scrumby's Bergvolk
keine Bewertung vorhanden
- Schwierigkeit
- Angaben
- Grafik
- Verständnis
Klicks: 2 - 0 - 304
642.362
1h
erstellt: 24.02.2021 - 18:06
Update: 24.02.2021 - 18:10
Versionen:
1x
Champion Vargus
-1----3---3--323--33
3x
Meister der Kampfkunst
---1--3--33---23--33
2x
Champion Nusala
---1--3--33---23--33
2-3x
General Boris
-1----3-13---3-3-313
3-4x
Jüngerer Zwillingsgeneral
---1--3--3-3-3-3-113
1-2x
Vermummter General
-1----3--31--213-313
1-2x
Standhafte Generalin
-1----3--31--213-313
1-3x
Geisterhafte Generälin
-1----3-33---2-3-213
2x
General Zitterbart
------3--33--2-3-313
1x
Champion Anslem
-1----3---3--323--33
1x
Champion Vargus
-1----3---3--323--33
2x
Generalmajor
-1----3--33---23--33
1x
Champion Nusala
---1--3--33---23--33
6x
Kampfgestählter General
2x
Veteran
2x
Generalmajor
3-9x
Meister der Kampfkunst
1-2x
Älterer Zwillingsgeneral
3-5x
Jüngerer Zwillingsgeneral
1x
Champion Anslem
-1----3---3--323--33
1x
Champion Vargus
-1----3---3--323--33
2x
Generalmajor
-1----3--33---23--33
4-9x
Meister der Kampfkunst
---1--3--33---23--33
1x
Champion Nusala
---1--3--33---23--33
6x
Kampfgestählter General
2-3x
Veteran
2x
Generalmajor
4-9x
Meister der Kampfkunst
 
sikookis: siko´s Bergvolk mit mehreren Fernis - Beißende Kälte + Schneesturm off
keine Bewertung vorhanden
- Schwierigkeit
- Angaben
- Grafik
- Verständnis
1x
Champion Vargus
-1----3---3--323--33
3x
Meister der Kampfkunst
---1--3--33---23--33
2x
Champion Nusala
---1--3--33---23--33
2-3x
General Boris
-1----3-13---3-3-313
3-4x
Jüngerer Zwillingsgeneral
---1--3--3-3-3-3-113
1-2x
Vermummter General
-1----3--31--213-313
1-2x
Standhafte Generalin
-1----3--31--213-313
1-3x
Geisterhafte Generälin
-1----3-33---2-3-213
2x
General Zitterbart
------3--33--2-3-313
Klicks: 0 - 0 - 353
erstellt: 25.01.2021 - 22:59
Update: 27.01.2021 - 17:17
 
sikookis: siko´s vermummtes Bergvolk, Blockfrei
keine Bewertung vorhanden
- Schwierigkeit
- Angaben
- Grafik
- Verständnis
1x
Champion Anslem
-1----3---3--323--33
1x
Champion Vargus
-1----3---3--323--33
2x
Generalmajor
-1----3--33---23--33
1x
Champion Nusala
---1--3--33---23--33
6x
Kampfgestählter General
2x
Veteran
2x
Generalmajor
3-9x
Meister der Kampfkunst
1-2x
Älterer Zwillingsgeneral
3-5x
Jüngerer Zwillingsgeneral
Klicks: 1 - 0 - 1163
erstellt: 24.04.2020 - 13:57
Update: 24.04.2020 - 14:01
 
sikookis: siko´s BK4 Simple- o. Full-Skill Pfeil Assa Kata
keine Bewertung vorhanden
- Schwierigkeit
- Angaben
- Grafik
- Verständnis
1x
Champion Anslem
-1----3---3--323--33
1x
Champion Vargus
-1----3---3--323--33
2x
Generalmajor
-1----3--33---23--33
4-9x
Meister der Kampfkunst
---1--3--33---23--33
1x
Champion Nusala
---1--3--33---23--33
6x
Kampfgestählter General
2-3x
Veteran
2x
Generalmajor
4-9x
Meister der Kampfkunst
Klicks: 2 - 0 - 2928
Kommentare: 1
erstellt: 26.11.2018 - 15:32
Update: 26.11.2018 - 15:43
Versionen:
1x
Champion Anslem
-1----3--33--311--33
2-3x
General Boris
-1----3--33--311--33
1x
General Zitterbart
-1----3--33--311--33
1x
Älterer Zwillingsgeneral
-1----3--33--311--33
1x
Champion Nusala
---1--3-331----13-33
5x
Meister der Kampfkunst
-1----3-3------23333
3x
Tavernen-General
---1--3-3------33323
1x
Mary Christmas
-1----3--33--311--33
2-3x
Jüngerer Zwillingsgeneral
---1--3---33---2-333
1x
Feldsanitätergeneral
---1--3-3-2-----3333
1x
Standhafte Generalin
-1----3-331----1-333
1x
Standhafte Generalin
---1--3-3-3---11-333
1x
Vermummter General
-1----3-3-3---113-33
2-3x
General Boris
-1----3--33--311--33
1x
General Zitterbart
-1----3--33--311--33
1x
Älterer Zwillingsgeneral
-1----3--33--311--33
1x
Champion Nusala
---1--3-331----13-33
5x
Meister der Kampfkunst
-1----3-3------23333
1x
Mary Christmas
-1----3--33--311--33
3-4x
Jüngerer Zwillingsgeneral
---1--3---33---2-333
1x
Standhafte Generalin
-1----3-331----1-333
2x
Standhafte Generalin
---1--3-3-3---11-333
 
Iche82: Bergvolk mit Wetterstation V1
keine Bewertung vorhanden
- Schwierigkeit
- Angaben
- Grafik
- Verständnis
1x
Champion Anslem
-1----3--33--311--33
2-3x
General Boris
-1----3--33--311--33
1x
General Zitterbart
-1----3--33--311--33
1x
Älterer Zwillingsgeneral
-1----3--33--311--33
1x
Champion Nusala
---1--3-331----13-33
5x
Meister der Kampfkunst
-1----3-3------23333
3x
Tavernen-General
---1--3-3------33323
1x
Mary Christmas
-1----3--33--311--33
2-3x
Jüngerer Zwillingsgeneral
---1--3---33---2-333
1x
Feldsanitätergeneral
---1--3-3-2-----3333
1x
Standhafte Generalin
-1----3-331----1-333
1x
Standhafte Generalin
---1--3-3-3---11-333
1x
Vermummter General
-1----3-3-3---113-33
Klicks: 0 - 0 - 388
1.932.000
erstellt: 28.11.2020 - 20:00
Update: 07.01.2021 - 14:40
 
Iche82: Bergvolk mit Wetterstation V2
keine Bewertung vorhanden
- Schwierigkeit
- Angaben
- Grafik
- Verständnis
2-3x
General Boris
-1----3--33--311--33
1x
General Zitterbart
-1----3--33--311--33
1x
Älterer Zwillingsgeneral
-1----3--33--311--33
1x
Champion Nusala
---1--3-331----13-33
5x
Meister der Kampfkunst
-1----3-3------23333
1x
Mary Christmas
-1----3--33--311--33
3-4x
Jüngerer Zwillingsgeneral
---1--3---33---2-333
1x
Standhafte Generalin
-1----3-331----1-333
2x
Standhafte Generalin
---1--3-3-3---11-333
Klicks: 0 - 0 - 245
2.028.000
erstellt: 28.11.2020 - 20:14
Update: 07.01.2021 - 14:41
 
Koeido: berfolk, geskillt
keine Bewertung vorhanden
- Schwierigkeit
- Angaben
- Grafik
- Verständnis
1x
Älterer Zwillingsgeneral
-1----3--33--3-2-3-3
1x
Champion Anslem
-1----31-22--3-3-3-3
1x
General Boris
-1----31-32--3-3-2-3
1x
Champion Nusala
---1--3--2-3-223-2-3
1x
Champion Vargus
-1----31-32--3-3-2-3
4x
Jüngerer Zwillingsgeneral
---1--3-3----3-3-233
10x
Meister der Kampfkunst
Klicks: 0 - 0 - 488
erstellt: 29.07.2020 - 22:30
Update: 06.09.2020 - 00:41
 
Siedler-bunt: Bunt's: BC-4_Bergvolk * Talente
keine Bewertung vorhanden
- Schwierigkeit
- Angaben
- Grafik
- Verständnis
1x
Champion Vargus
-1----3--33--3-2--33
1x
Champion Nusala
---1--3-3-3----33-23
1-3x
Generalmajor
-1----3--33--3-3--23
5-99x
Meister der Kampfkunst
---1--3-3-3---131-33
1x
Feldsanitätergeneral
---1--3-3---2--33-33
2x
Tavernen-General
2-99x
Meister der Kampfkunst
Klicks: 0 - 0 - 1374
550.000
erstellt: 27.07.2019 - 15:18
Update: 27.07.2019 - 15:23
 
Wegklopper: BK4 ohne Tiefschnee ACHTUNG WETTERKONTROLLSTATION!
keine Bewertung vorhanden
- Schwierigkeit
- Angaben
- Grafik
- Verständnis
1x
Champion Anslem
-1---13--33--3-1--33
1x
Champion Vargus
-1---13--33--3-1--33
1-2x
Generalmajor
-1---13--33--3-1--33
4x
Meister der Kampfkunst
---1--3-3--3---3-323
1x
Fürst Dracul
---1--3----33---3323
2-3x
Tavernen-General
---1--3---33---33-23
5x
Kampfgestählter General
---1--3----33--23-33
1x
Veteran
---1--3----333-23--3
1x
General Boris
-1----3-33---3-3--23
3-4x
Tavernen-General
Klicks: 1 - 0 - 2212
Kommentare: 1
erstellt: 13.06.2019 - 12:29
Update: 22.06.2019 - 07:55
 
Massive-Dynamic: Berg-Clan Part IV - Das Bergvolk (V 1.6)
keine Bewertung vorhanden
- Schwierigkeit
- Angaben
- Grafik
- Verständnis
Klicks: 3 - 0 - 5171
Kommentare: 5
425.000
2h 30min
erstellt: 30.12.2018 - 00:40
Update: 15.06.2019 - 23:36

0 0 0 0 0 0 0 0 0 0 0 0 0 0 0 0 0 0 0 0