Ali Baba und der dritte Dieb

Kampagne: Arabische Nächte
Thema: Märchen
159.091 EP
1 Spieler
42 Taktikkarten
Kartenarchiv
Bonus-EP:
Belohnungen
Slots 1 + 2

2000 (45%)

300 (45%)

500 (5%)

2500 (5%)

Slots 3 + 4

8000 (2200%)

2200 (100%)

Slots 5 + 6

400 (25%)

400 (25%)

400 (25%)

2 (25%)

Slot 7

1 (65%)

1 (35%)

Slot 8

1 (50%)

Slot 9

398

159091

letztes Aktualisierung: 28.06.2018 - 16:22 Uhr

Filter

Uploader
Besonderheiten
Generäle
Versionen:
2-6x
Tavernen-General
---1------23--333-33
1-4x
Champion Anslem
1-----31-32--2-3--33
1-6x
Champion Vargus
-1----32-3---3-3--33
1-3x
Geisterhafte Generälin
-1----3123---3-3--23
1-8x
General Sylvana
-1----3-3-3--3-3--23
1x
Jüngerer Zwillingsgeneral
---1--3-3----2-33-33
0-1x
Verteidigungsmeister
---1------23--333-33
1-3x
Älterer Zwillingsgeneral
-1----3--3---323--33
1-2x
Champion Anslem
1-----31-32--2-3--33
1-9x
Champion Vargus
-1----32-3---3-3--33
1-6x
Geisterhafte Generälin
-1----3123---3-3--23
1-8x
General Sylvana
-1----3-3-3--3-3--23
1-4x
Älterer Zwillingsgeneral
-1----3--3---323--33
 
jonnyhopp@web.de: Ali Baba und der dritte Dieb - geringe Verlust mit Block
keine Bewertung vorhanden
- Schwierigkeit
- Angaben
- Grafik
- Verständnis
2-6x
Tavernen-General
---1------23--333-33
1-4x
Champion Anslem
1-----31-32--2-3--33
1-6x
Champion Vargus
-1----32-3---3-3--33
1-3x
Geisterhafte Generälin
-1----3123---3-3--23
1-8x
General Sylvana
-1----3-3-3--3-3--23
1x
Jüngerer Zwillingsgeneral
---1--3-3----2-33-33
0-1x
Verteidigungsmeister
---1------23--333-33
1-3x
Älterer Zwillingsgeneral
-1----3--3---323--33
Klicks: 2 - 0 - 45
erstellt: 24.05.2021 - 08:41
Update: 24.05.2021 - 08:43
 
jonnyhopp@web.de: Ali Baba und der dritte Dieb - geringe Verlust ohne Block
keine Bewertung vorhanden
- Schwierigkeit
- Angaben
- Grafik
- Verständnis
1-2x
Champion Anslem
1-----31-32--2-3--33
1-9x
Champion Vargus
-1----32-3---3-3--33
1-6x
Geisterhafte Generälin
-1----3123---3-3--23
1-8x
General Sylvana
-1----3-3-3--3-3--23
1-4x
Älterer Zwillingsgeneral
-1----3--3---323--33
Klicks: 0 - 0 - 36
erstellt: 24.05.2021 - 08:40
Update: 24.05.2021 - 08:44
 
Kenoraj: verlustoptimiert mit Zwillingen, Mary, GG, Sarg, Ans, Bo/Syl
keine Bewertung vorhanden
- Schwierigkeit
- Angaben
- Grafik
- Verständnis
3x
Jüngerer Zwillingsgeneral
---1--3-33---3-3--23
1x
Champion Vargus
-1----3--3---332-123
1x
Champion Anslem
-1----3--3---333--23
1x
Älterer Zwillingsgeneral
-1----3--3---333--23
1x
General Sylvana
-1----3--3---333--23
1x
Mary Christmas
--1---3-3-3---33--23
1x
Standhafte Generalin
---1--3--3-3--33--23
1-3x
Geisterhafte Generälin
-1----3-33---31--331
Klicks: 1 - 0 - 425
Kommentare: 2
erstellt: 22.12.2020 - 14:14
Update: 04.05.2021 - 21:05
Versionen:
1-2x
Geisterhafte Generälin
1---2-3--3---3-3-3-3
0-1x
General Boris
-1----3-331--31---33
1-3x
Geisterhafte Generälin
-1----3-33---3---323
1-2x
General Sylvana
-1----3-331--31---33
1-2x
Geisterhafte Generälin
1---2-3--3---3-3-3-3
0-1x
General Boris
-1----3-331--31---33
1-3x
Geisterhafte Generälin
-1----3-33---3---323
1-2x
General Sylvana
-1----3-331--31---33
 
Merlin-tkn1971: 3. Dieb Anteria Mix
keine Bewertung vorhanden
- Schwierigkeit
- Angaben
- Grafik
- Verständnis
1-2x
Geisterhafte Generälin
1---2-3--3---3-3-3-3
0-1x
General Boris
-1----3-331--31---33
1-3x
Geisterhafte Generälin
-1----3-33---3---323
1-2x
General Sylvana
-1----3-331--31---33
Klicks: 0 - 0 - 133
erstellt: 12.03.2021 - 12:57
Update: 12.03.2021 - 12:57
 
Merlin-tkn1971: Ali Baba und der dritte Dieb
keine Bewertung vorhanden
- Schwierigkeit
- Angaben
- Grafik
- Verständnis
Klicks: 0 - 0 - 88
erstellt: 12.03.2021 - 13:01
Update: 12.03.2021 - 13:01
 
Merlin-tkn1971: Ali Baba und der dritte Dieb
keine Bewertung vorhanden
- Schwierigkeit
- Angaben
- Grafik
- Verständnis
Klicks: 0 - 0 - 82
erstellt: 12.03.2021 - 14:40
Update: 12.03.2021 - 14:40
 
Merlin-tkn1971: Ali Baba und der dritte Dieb geskillt mit Boris
keine Bewertung vorhanden
- Schwierigkeit
- Angaben
- Grafik
- Verständnis
Klicks: 0 - 0 - 76
erstellt: 12.03.2021 - 14:11
Update: 12.03.2021 - 14:11
 
Merlin-tkn1971: Geskillter 3. Dieb mit Maryeinsatz
keine Bewertung vorhanden
- Schwierigkeit
- Angaben
- Grafik
- Verständnis
Klicks: 0 - 0 - 87
erstellt: 12.03.2021 - 13:27
Update: 12.03.2021 - 13:27
 
Merlin-tkn1971: Geister Speed dritter Dieb
keine Bewertung vorhanden
- Schwierigkeit
- Angaben
- Grafik
- Verständnis
Packliste 30 65 800 120 800 400 2.215 Packliste 30 65 800 120 800 400 2.215
1-2x
Geisterhafte Generälin
1---2-3--3---3-3-3-3
0-1x
General Boris
-1----3-331--31---33
1-3x
Geisterhafte Generälin
-1----3-33---3---323
1-2x
General Sylvana
-1----3-331--31---33
Klicks: 0 - 0 - 36
erstellt: 02.05.2021 - 08:09
Update: 02.05.2021 - 08:14
Versionen:
1x
Jüngerer Zwillingsgeneral
---1--3--3-3-3-3-113
1-4x
Geisterhafte Generälin
-1----3-33---2-3-213
1-3x
Einsamer General
-1----3-33---3-3-2-3
1x
Jüngerer Zwillingsgeneral
1x
Champion Anslem
-1----3---3--323--33
1x
Champion Vargus
-1----3---3--323--33
1x
Champion Nusala
---1--3--33---23--33
1x
General Boris
-1----3-13---3-3-313
1x
Älterer Zwillingsgeneral
-1----3--33--3-3--23
1-3x
Mary Christmas
-1----32-31--3-3--32
1x
Jüngerer Zwillingsgeneral
1x
Champion Anslem
-1----3---3--323--33
1x
Champion Vargus
-1----3---3--323--33
1x
Champion Nusala
---1--3--33---23--33
1x
General Boris
-1----3-13---3-3-313
1-2x
Jüngerer Zwillingsgeneral
---1--3--3-3-3-3-113
1-2x
Älterer Zwillingsgeneral
-1----3--33--3-3--23
1-3x
Champion Anslem
-1----3---3--323--33
1-4x
Champion Vargus
-1----3---3--323--33
1x
General Boris
-1----3-13---3-3-313
1x
Jüngerer Zwillingsgeneral
---1--3--3-3-3-3-113
1-2x
Älterer Zwillingsgeneral
-1----3--33--3-3--23
1-3x
Vermummter General
-1----3--31--213-313
 
sikookis: siko´s 3. Dieb mit Einsamem General, GG, blockfrei, ggf. zzgl. VAR/Standhafte/Brandpfeil
keine Bewertung vorhanden
- Schwierigkeit
- Angaben
- Grafik
- Verständnis
1x
Jüngerer Zwillingsgeneral
---1--3--3-3-3-3-113
1-4x
Geisterhafte Generälin
-1----3-33---2-3-213
1-3x
Einsamer General
-1----3-33---3-3-2-3
1x
Jüngerer Zwillingsgeneral
Klicks: 8 - 0 - 421
erstellt: 03.03.2021 - 18:01
Update: 09.03.2021 - 19:36
 
sikookis: siko´s vermummter 3. Dieb, blockfrei, Skills
keine Bewertung vorhanden
- Schwierigkeit
- Angaben
- Grafik
- Verständnis
1x
Champion Anslem
-1----3---3--323--33
1x
Champion Vargus
-1----3---3--323--33
1x
Champion Nusala
---1--3--33---23--33
1x
General Boris
-1----3-13---3-3-313
1x
Älterer Zwillingsgeneral
-1----3--33--3-3--23
Klicks: 1 - 0 - 1120
erstellt: 30.04.2020 - 21:16
Update: 08.05.2020 - 13:37
 
sikookis: siko´s 3. Dieb, Kür für Mary, blockfrei, Skills
keine Bewertung vorhanden
- Schwierigkeit
- Angaben
- Grafik
- Verständnis
1-3x
Mary Christmas
-1----32-31--3-3--32
1x
Jüngerer Zwillingsgeneral
Klicks: 0 - 0 - 484
erstellt: 30.04.2020 - 21:17
Update: 01.05.2020 - 18:10
 
sikookis: siko´s 3. Dieb, Multi-Geni, blockfrei, Skills
keine Bewertung vorhanden
- Schwierigkeit
- Angaben
- Grafik
- Verständnis
1x
Champion Anslem
-1----3---3--323--33
1x
Champion Vargus
-1----3---3--323--33
1x
Champion Nusala
---1--3--33---23--33
1x
General Boris
-1----3-13---3-3-313
1-2x
Jüngerer Zwillingsgeneral
---1--3--3-3-3-3-113
1-2x
Älterer Zwillingsgeneral
-1----3--33--3-3--23
Klicks: 0 - 0 - 423
erstellt: 30.04.2020 - 21:14
Update: 08.05.2020 - 13:40
 
sikookis: siko´s experim. 3. Dieb, interner Gebrauch Gilde
keine Bewertung vorhanden
- Schwierigkeit
- Angaben
- Grafik
- Verständnis
1-3x
Champion Anslem
-1----3---3--323--33
1-4x
Champion Vargus
-1----3---3--323--33
1x
General Boris
-1----3-13---3-3-313
1x
Jüngerer Zwillingsgeneral
---1--3--3-3-3-3-113
1-2x
Älterer Zwillingsgeneral
-1----3--33--3-3--23
1-3x
Vermummter General
-1----3--31--213-313
Klicks: 0 - 0 - 437
erstellt: 07.05.2020 - 07:54
Update: 06.12.2020 - 20:28
 
scrumby: scrumby's 3. Dieb
keine Bewertung vorhanden
- Schwierigkeit
- Angaben
- Grafik
- Verständnis
Klicks: 1 - 0 - 201
361.046
1h
erstellt: 23.02.2021 - 20:31
Update: 23.02.2021 - 22:22
 
freak-9403: Freak´s 3.Dieb mit Mary
keine Bewertung vorhanden
- Schwierigkeit
- Angaben
- Grafik
- Verständnis
Packliste 235 230 1.000 210 1.000 450 3.125 Packliste 235 230 1.000 210 1.000 450 3.125
2x
Mary Christmas
--1---31-33--31---33
1x
Tavernen-General
1x
Meister der Kampfkunst
Klicks: 2 - 0 - 257
erstellt: 10.01.2021 - 15:27
Update: 10.01.2021 - 17:35
 
Iche82: Dieb 3 EP Zitterbart
keine Bewertung vorhanden
- Schwierigkeit
- Angaben
- Grafik
- Verständnis
1x
Champion Vargus
-1----3--33--311--33
1x
Champion Anslem
-1----3--33--311--33
2x
General Boris
-1----3--33--311--33
1x
General Zitterbart
-1----3--33--311--33
1x
Champion Nusala
---1--3-331----13-33
2x
Mary Christmas
--1---3--33--311--33
2x
Jüngerer Zwillingsgeneral
---1--3---33---2-333
Klicks: 1 - 0 - 411
960.000
erstellt: 10.11.2020 - 19:42
Update: 07.01.2021 - 14:37
Versionen:
3x
General Sylvana
-1----3--33--312--23
4x
Jüngerer Zwillingsgeneral
---1------32--33-333
2x
Champion Nusala
---1--3--33---23--33
2x
Geisterhafte Generälin
-1----3-133--3-1-3-3
1x
Jüngerer Zwillingsgeneral
-1---2---32--33--313
2x
Vermummter General
-1--1----33--323--23
1x
Mary Christmas
-1----3-2-3--232--23
3x
General Sylvana
-1----3--33--312--23
4x
Jüngerer Zwillingsgeneral
---1------32--33-333
1x
Champion Nusala
---1--3--33---23--33
2x
Geisterhafte Generälin
-1----3-133--3-1-3-3
1x
Jüngerer Zwillingsgeneral
-1---2---32--33--313
1x
Vermummter General
-1--1----33--323--23
 
Brockenhexe46: Sylvana,Mary und Vorwellen (blockfrei)
keine Bewertung vorhanden
- Schwierigkeit
- Angaben
- Grafik
- Verständnis
3x
General Sylvana
-1----3--33--312--23
4x
Jüngerer Zwillingsgeneral
---1------32--33-333
2x
Champion Nusala
---1--3--33---23--33
2x
Geisterhafte Generälin
-1----3-133--3-1-3-3
1x
Jüngerer Zwillingsgeneral
-1---2---32--33--313
2x
Vermummter General
-1--1----33--323--23
1x
Mary Christmas
-1----3-2-3--232--23
Klicks: 0 - 0 - 210
2.113.749
1h 30min
erstellt: 24.12.2020 - 23:22
Update: 24.12.2020 - 23:26
 
Brockenhexe46: Sylvana,Geist und Vorwellen (blockfrei)
keine Bewertung vorhanden
- Schwierigkeit
- Angaben
- Grafik
- Verständnis
3x
General Sylvana
-1----3--33--312--23
4x
Jüngerer Zwillingsgeneral
---1------32--33-333
1x
Champion Nusala
---1--3--33---23--33
2x
Geisterhafte Generälin
-1----3-133--3-1-3-3
1x
Jüngerer Zwillingsgeneral
-1---2---32--33--313
1x
Vermummter General
-1--1----33--323--23
Klicks: 1 - 0 - 143
2.034.177
1h 30min
erstellt: 23.12.2020 - 23:56
Update: 24.12.2020 - 23:27
Versionen:
0-1x
General Boris
-1----3-33---3-1-331
1x
Champion Nusala
---1--3-33---3-23--3
2-4x
Jüngerer Zwillingsgeneral
---1--3--3---313-313
1-4x
Mary Christmas
--1---3---3---23-333
1x
Champion Vargus
--1---3-33---3-2--33
1x
Champion Anslem
--1---3-33---3-2--33
1x
Standhafte Generalin
------3-33---3-2-222
1-2x
General Sylvana
-1----3-33---3-1-331
1x
Generalmajor
1x
Champion Anslem
1x
Champion Nusala
1x
Champion Vargus
1-4x
Mary Christmas
1x
General Boris
2-3x
Jüngerer Zwillingsgeneral
 
Polyticker: JZW + Boris/Sylvana + Ans + Var + Mary + Geist + ÄZG + ZB + STG - kurz oder lang
keine Bewertung vorhanden
- Schwierigkeit
- Angaben
- Grafik
- Verständnis
0-1x
General Boris
-1----3-33---3-1-331
1x
Champion Nusala
---1--3-33---3-23--3
2-4x
Jüngerer Zwillingsgeneral
---1--3--3---313-313
1-4x
Mary Christmas
--1---3---3---23-333
1x
Champion Vargus
--1---3-33---3-2--33
1x
Champion Anslem
--1---3-33---3-2--33
1x
Standhafte Generalin
------3-33---3-2-222
1-2x
General Sylvana
-1----3-33---3-1-331
Klicks: 1 - 0 - 214
erstellt: 08.12.2020 - 08:56
Update: 08.12.2020 - 08:56
 
Polyticker: 2 JZW + Marys + Sylvana/Boris
keine Bewertung vorhanden
- Schwierigkeit
- Angaben
- Grafik
- Verständnis
Klicks: 0 - 0 - 397
erstellt: 16.09.2020 - 08:31
Update: 16.09.2020 - 16:39
 
Polyticker: Kurze Version
keine Bewertung vorhanden
- Schwierigkeit
- Angaben
- Grafik
- Verständnis
1x
Generalmajor
1x
Champion Anslem
1x
Champion Nusala
1x
Champion Vargus
1-4x
Mary Christmas
1x
General Boris
2-3x
Jüngerer Zwillingsgeneral
Klicks: 0 - 0 - 793
Kommentare: 3
erstellt: 01.05.2020 - 22:17
Update: 06.05.2020 - 20:16
Versionen:
1x
General Boris
-1----3-3-3--312--23
1-3x
Jüngerer Zwillingsgeneral
---1--3-3--3---23-33
1x
General Zitterbart
-1----3-223--3-2--23
1x
Champion Vargus
-1----31-33--3-2--23
1x
Champion Anslem
-1----31-33--3-2--23
1x
Champion Nusala
-1----3---233--23-13
1x
Mary Christmas
--1---3--33--312--23
1x
Veteran
 
bogini: 3. Dieb Zitterbart Boris 2-3x jZw 0-1x Standhafte
keine Bewertung vorhanden
- Schwierigkeit
- Angaben
- Grafik
- Verständnis
1x
General Boris
-1----3-3-3--312--23
1-3x
Jüngerer Zwillingsgeneral
---1--3-3--3---23-33
1x
General Zitterbart
-1----3-223--3-2--23
Klicks: 19 - 0 - 4356
erstellt: 24.11.2020 - 05:34
Update: 04.12.2020 - 05:01
 
bogini: 3. Dieb mit Boris Mary Champs und Blocks
keine Bewertung vorhanden
- Schwierigkeit
- Angaben
- Grafik
- Verständnis
1x
Champion Vargus
-1----31-33--3-2--23
1x
Champion Anslem
-1----31-33--3-2--23
1x
Champion Nusala
-1----3---233--23-13
1x
Mary Christmas
--1---3--33--312--23
1x
Veteran
Klicks: 2 - 0 - 10316
Kommentare: 4
erstellt: 13.06.2019 - 19:33
Update: 25.07.2020 - 05:27
 
bogini: 3. Dieb Mary
keine Bewertung vorhanden
- Schwierigkeit
- Angaben
- Grafik
- Verständnis
Klicks: 1 - 0 - 168
erstellt: 21.11.2020 - 07:37
Update: 21.11.2020 - 07:37
 
bogini: 3. Dieb champs
keine Bewertung vorhanden
- Schwierigkeit
- Angaben
- Grafik
- Verständnis
Klicks: 0 - 0 - 150
erstellt: 21.11.2020 - 07:36
Update: 21.11.2020 - 07:36
 
bogini: 3. Dieb ohne Skills
keine Bewertung vorhanden
- Schwierigkeit
- Angaben
- Grafik
- Verständnis
Klicks: 0 - 0 - 150
erstellt: 21.11.2020 - 07:35
Update: 21.11.2020 - 07:35
 
Der-Siedler2: 3.Dieb Boris, Mary, Zitterbart
keine Bewertung vorhanden
- Schwierigkeit
- Angaben
- Grafik
- Verständnis
2-3x
Tavernen-General
1x
Champion Anslem
2x
Champion Nusala
1-2x
Champion Vargus
2-3x
Mary Christmas
2-3x
General Boris
1x
Älterer Zwillingsgeneral
1-2x
General Zitterbart
Klicks: 0 - 0 - 234
343.749
erstellt: 24.11.2020 - 20:54
Update: 24.11.2020 - 20:58
 
Egnor: 3. Dieb geskillt
keine Bewertung vorhanden
- Schwierigkeit
- Angaben
- Grafik
- Verständnis
1x
General Boris
-1----3-33---3-3--23
1x
General Sylvana
-1----3-33---3-3--23
1-4x
Mary Christmas
-1----3-3-3--3-3--23
1x
General Zitterbart
-1----3--2---3-3-333
2x
Tavernen-General
---1------23--333-33
Klicks: 1 - 0 - 169
erstellt: 17.11.2020 - 22:06
Update: 18.11.2020 - 22:57
Versionen:
 
Arcata: Alternative mit GM
keine Bewertung vorhanden
- Schwierigkeit
- Angaben
- Grafik
- Verständnis
Klicks: 0 - 0 - 175
erstellt: 11.11.2020 - 12:04
Update: 11.11.2020 - 12:04
 
Arcata: Der 3. Dieb für Vargus, Zitterbart, Sylvana
keine Bewertung vorhanden
- Schwierigkeit
- Angaben
- Grafik
- Verständnis
Klicks: 0 - 0 - 370
erstellt: 08.10.2020 - 11:02
Update: 08.10.2020 - 11:02
 
ElmoBank: 3. Dieb mit Zitterbart oder günstige Variante
keine Bewertung vorhanden
- Schwierigkeit
- Angaben
- Grafik
- Verständnis
Klicks: 0 - 0 - 492
425.613
erstellt: 06.10.2020 - 15:25
Update: 06.10.2020 - 15:36
 
Bob-01: Bob´s Dritte Dieb blockfrei ohne skill´s
keine Bewertung vorhanden
- Schwierigkeit
- Angaben
- Grafik
- Verständnis
1x
Generalmajor
1x
Meister der Kampfkunst
Klicks: 3 - 0 - 721
erstellt: 23.07.2020 - 13:25
Update: 23.07.2020 - 13:27
 
FST81: 3. DIeb mit Mary, Boris und Standhafter
keine Bewertung vorhanden
- Schwierigkeit
- Angaben
- Grafik
- Verständnis
1-4x
Mary Christmas
-1----3--33--33---23
1x
Champion Vargus
-1---23-23---3-1--33
1x
Meister der Kampfkunst
---1--3-3----3-23-33
1x
General Boris
---1--3-3-3--3--2-33
2x
Jüngerer Zwillingsgeneral
---1--3-33---3--2-33
1x
Tavernen-General
Klicks: 1 - 0 - 1469
Kommentare: 1
279.000
erstellt: 22.01.2020 - 20:26
Update: 22.01.2020 - 21:46
 
Paradoxy: Ali Baba und der dritte Dieb
keine Bewertung vorhanden
- Schwierigkeit
- Angaben
- Grafik
- Verständnis
1x
General Boris
--1---3-3-3---33--23
2x
Generalmajor
-1----3--33---23--33
1x
Champion Vargus
-1----3--33---23--33
2x
Meister der Kampfkunst
---1----3----3-33233
2x
Tavernen-General
----------------3-33
1x
Champion Anslem
1-----3--32--3-3--33
Klicks: 0 - 0 - 977
erstellt: 09.11.2019 - 02:22
Update: 09.11.2019 - 02:29
Versionen:
1x
Generalmajor
-1---13--33--3-1--33
1x
General Boris
-1----3-33---3-3--23
2x
Tavernen-General
2x
Kampfgestählter General
1x
Generalmajor
1x
Champion Anslem
-1---13--33--3-1--33
1x
Champion Vargus
-1---13--33--3-1--33
1-2x
Generalmajor
-1---13--33--3-1--33
1x
Champion Nusala
---1--3---333--23--3
5-6x
Meister der Kampfkunst
---1--3-3--3---3-323
1x
Verrückter Wissenschaftler
-1---13--33--3-1--33
3x
Tavernen-General
---1--3---33---33-23
1x
Tavernen-General
-1----3----33--33-23
3-4x
Kampfgestählter General
---1--3----33--23-33
1x
General Boris
-1----3-33---3-3--23
 
Wegklopper: Ali Baba und der dritte Dieb ab Stufe 55 (Boris!)
keine Bewertung vorhanden
- Schwierigkeit
- Angaben
- Grafik
- Verständnis
1x
Generalmajor
-1---13--33--3-1--33
1x
General Boris
-1----3-33---3-3--23
2x
Tavernen-General
2x
Kampfgestählter General
1x
Generalmajor
Klicks: 1 - 0 - 3705
Kommentare: 2
223.000
1h 20min
erstellt: 31.05.2019 - 08:43
Update: 31.05.2019 - 11:21
 
Wegklopper: Allen Widrigkeiten zum Trotz
keine Bewertung vorhanden
- Schwierigkeit
- Angaben
- Grafik
- Verständnis
1x
Champion Anslem
-1---13--33--3-1--33
1x
Champion Vargus
-1---13--33--3-1--33
1-2x
Generalmajor
-1---13--33--3-1--33
1x
Champion Nusala
---1--3---333--23--3
5-6x
Meister der Kampfkunst
---1--3-3--3---3-323
1x
Verrückter Wissenschaftler
-1---13--33--3-1--33
3x
Tavernen-General
---1--3---33---33-23
1x
Tavernen-General
-1----3----33--33-23
3-4x
Kampfgestählter General
---1--3----33--23-33
1x
General Boris
-1----3-33---3-3--23
Klicks: 1 - 0 - 3354
erstellt: 20.07.2019 - 11:46
Update: 01.08.2019 - 10:07
 
Massive-Dynamic: Ali Baba - 3. Dieb (V 3.1)
keine Bewertung vorhanden
- Schwierigkeit
- Angaben
- Grafik
- Verständnis
Klicks: 2 - 0 - 5493
Kommentare: 1
225.000
1h 30min
erstellt: 31.10.2018 - 07:54
Update: 02.04.2019 - 23:25
 
Koeido: 3.Dieb mit 9 angriffswellen
keine Bewertung vorhanden
- Schwierigkeit
- Angaben
- Grafik
- Verständnis
2x
Tavernen-General
2x
Veteran
2x
Generalmajor
6x
Meister der Kampfkunst
1x
Champion Anslem
1x
Champion Vargus
2x
Mary Christmas
Klicks: 1 - 0 - 1657
214.000
1h 40min
erstellt: 17.02.2019 - 11:09
Update: 12.03.2019 - 20:25
 
Tumdi: 3. Dieb mit Schuss/ü283kEP/ab Lvl.57/Mary geskill
keine Bewertung vorhanden
- Schwierigkeit
- Angaben
- Grafik
- Verständnis
Klicks: 0 - 0 - 2535
erstellt: 07.02.2019 - 07:07
Update: 07.02.2019 - 07:07
Versionen:
2x
Tavernen-General
1x
Veteran
1-2x
Generalmajor
1x
Meister der Kampfkunst
1x
Champion Anslem
1x
Champion Nusala
1x
Champion Vargus
1x
Mary Christmas
 
Siedler-bunt: Bunt's: 3. Dieb - ohne Skill - Variantenreich
keine Bewertung vorhanden
- Schwierigkeit
- Angaben
- Grafik
- Verständnis
2x
Tavernen-General
1x
Veteran
1-2x
Generalmajor
1x
Meister der Kampfkunst
1x
Champion Anslem
1x
Champion Nusala
1x
Champion Vargus
1x
Mary Christmas
Klicks: 0 - 0 - 2755
159.091
erstellt: 07.11.2018 - 10:51
Update: 22.11.2018 - 11:17
 
Siedler-bunt: Bunt's: 3er Dieb * Talente
keine Bewertung vorhanden
- Schwierigkeit
- Angaben
- Grafik
- Verständnis
Klicks: 0 - 0 - 829
erstellt: 14.01.2019 - 17:17
Update: 14.01.2019 - 17:19

0 0 0 0 0 0 0 0 0 0 0 0 0 0 0 0 0 0 0 0