Iche82


Welt: W09 - Schneefeuer

Gilde:
Gilde:
Taktikkarten: 20

registriert seit: 25.09.2020
letzter Login: 29.03.2021

Letzte Kommentare von Iche82

Das Bonaberti-ProblemBonert Berti ohne Block
Iche82 schrieb am 05.12.2020Moin,der Packzettel wird angepasst irgendwie war da grad der Fehlerteufel anwesend.Die BSS werd ich auf so eine art Triple parallel Angriffe anpasen, ich pack wäöhrend eines Angriffs gern die Truppen in die Gens für den/die nächsten Angriffe …
Ali Baba der junge HolzfällerSylvana und die Vierlinge
Iche82 schrieb am 04.12.2020test bestanden
Das Bonaberti-ProblemBonert Berti
Iche82 schrieb am 20.11.2020Dankeschön, habs angepasst. Der Simu in dem das ABenteuer vorhanden ist kann leider nicht auf 100k Simulationen gestellt werden der macht nur 10k was mir persönlich und siehe diesen Fall zu wenig ist.
Einen Schritt vorausEinen Schritt voraus, komplett, COA, Boris
Iche82 schrieb am 12.10.2020@boleraGeskillte Tavernen Generäle sind nun mal auch Bestandteil von Taktiken. Ich habe meine auch geskillt zwar nicht so unterschiedlich wie Wegklopper aber es gibt mir die möglichkeit das eine oder andere Lager zu blocken was ohne eine Skillung …

neueste Karten von Iche82

Aladin und die schöne Prinzessin

 
Iche82: Prinzessin fast komplett EP
keine Bewertung vorhanden
- Schwierigkeit
- Angaben
- Grafik
- Verständnis
1x
Champion Vargus
-1----3--33--311--33
2-3x
General Boris
-1----3--33--311--33
1x
General Zitterbart
-1----3--33--311--33
1x
Generalmajor
-1----3--33--311--33
1x
Älterer Zwillingsgeneral
-1----3--33--311--33
1x
Champion Nusala
---1--3-331----13-33
3x
Tavernen-General
---1--3-3------33323
1x
Mary Christmas
-1----3--33--311--33
4x
Jüngerer Zwillingsgeneral
---1--3---33---2-333
2x
Feldsanitätergeneral
---1--3-3-2-----3333
1x
Standhafte Generalin
-1----3-331----1-333
1x
Standhafte Generalin
---1--3-3-3---11-333
1x
Generalmajor
-1----3-3---3---3332
Klicks: 3 - 0 - 175
9.051.000
erstellt: 20.12.2020 - 15:36
Update: 04.01.2021 - 20:18

Ein Riesenkampf

 
Iche82: Riesenkampf EP Wetterstation
keine Bewertung vorhanden
- Schwierigkeit
- Angaben
- Grafik
- Verständnis
1x
Champion Vargus
-1----3--33--311--33
2-3x
General Boris
-1----3--33--311--33
1x
General Zitterbart
-1----3--33--311--33
1x
Älterer Zwillingsgeneral
-1----3--33--311--33
1x
Champion Nusala
---1--3-331----13-33
4x
Meister der Kampfkunst
-1----3-3------23333
1x
Mary Christmas
-1----3--33--311--33
1x
Mary Christmas
--1---3--33--311--33
4x
Jüngerer Zwillingsgeneral
---1--3---33---2-333
4x
Feldsanitätergeneral
---1--3-3-2-----3333
1x
Standhafte Generalin
-1----3-331----1-333
3x
Standhafte Generalin
---1--3-3-3---11-333
1x
Vermummter General
-1----3-3-3---113-33
1x
Generalmajor
-1----3-3---3---3332
2x
Geisterhafte Generälin
-1----3--33--311--33
Klicks: 1 - 0 - 292
7.960.000
erstellt: 20.12.2020 - 15:13
Update: 07.01.2021 - 14:42

Das Bergvolk

 
Iche82: Bergvolk mit Wetterstation V2
keine Bewertung vorhanden
- Schwierigkeit
- Angaben
- Grafik
- Verständnis
2-3x
General Boris
-1----3--33--311--33
1x
General Zitterbart
-1----3--33--311--33
1x
Älterer Zwillingsgeneral
-1----3--33--311--33
1x
Champion Nusala
---1--3-331----13-33
5x
Meister der Kampfkunst
-1----3-3------23333
1x
Mary Christmas
-1----3--33--311--33
3-4x
Jüngerer Zwillingsgeneral
---1--3---33---2-333
1x
Standhafte Generalin
-1----3-331----1-333
2x
Standhafte Generalin
---1--3-3-3---11-333
Klicks: 1 - 0 - 154
2.028.000
erstellt: 28.11.2020 - 20:14
Update: 07.01.2021 - 14:41

Das Bergvolk

 
Iche82: Bergvolk mit Wetterstation V1
keine Bewertung vorhanden
- Schwierigkeit
- Angaben
- Grafik
- Verständnis
1x
Champion Anslem
-1----3--33--311--33
2-3x
General Boris
-1----3--33--311--33
1x
General Zitterbart
-1----3--33--311--33
1x
Älterer Zwillingsgeneral
-1----3--33--311--33
1x
Champion Nusala
---1--3-331----13-33
5x
Meister der Kampfkunst
-1----3-3------23333
3x
Tavernen-General
---1--3-3------33323
1x
Mary Christmas
-1----3--33--311--33
2-3x
Jüngerer Zwillingsgeneral
---1--3---33---2-333
1x
Feldsanitätergeneral
---1--3-3-2-----3333
1x
Standhafte Generalin
-1----3-331----1-333
1x
Standhafte Generalin
---1--3-3-3---11-333
1x
Vermummter General
-1----3-3-3---113-33
Klicks: 1 - 0 - 258
1.932.000
erstellt: 28.11.2020 - 20:00
Update: 07.01.2021 - 14:40

Berglabyrinth

 
Iche82: Berglabyrinth mit Wetterstation V2
keine Bewertung vorhanden
- Schwierigkeit
- Angaben
- Grafik
- Verständnis
1x
Champion Vargus
-1----3--33--311--33
1-2x
General Boris
-1----3--33--311--33
1x
General Zitterbart
-1----3--33--311--33
1x
Älterer Zwillingsgeneral
-1----3--33--311--33
1x
Champion Nusala
---1--3-331----13-33
3x
Meister der Kampfkunst
-1----3-3------23333
1x
Mary Christmas
-1----3--33--311--33
4x
Jüngerer Zwillingsgeneral
---1--3---33---2-333
2x
Feldsanitätergeneral
---1--3-3-2-----3333
2x
Standhafte Generalin
-1----3-331----1-333
1x
Standhafte Generalin
---1--3-3-3---11-333
1x
Vermummter General
-1----3-3-3---113-33
Klicks: 1 - 0 - 187
4.852.000
erstellt: 26.11.2020 - 21:08
Update: 07.01.2021 - 14:39

00000000000000000000