Filter

Besonderheiten
Generäle
Versionen:
1x
Champion Anslem
1-----31-32--2-3--33
1-3x
Champion Vargus
-1----32-3---3-3--33
1-8x
Geisterhafte Generälin
-1----3123---3-3--23
1-15x
General Sylvana
-1----3-3-3--3-3--23
2-4x
Jüngerer Zwillingsgeneral
---1--3-3----2-33-33
1x
Älterer Zwillingsgeneral
-1----3--3---323--33
6x
Tavernen-General
---1------23--333-33
1x
Champion Nusala
---1--31-32---23--33
3x
Champion Vargus
-1----32-3---3-3--33
1-6x
Geisterhafte Generälin
-1----3123---3-3--23
1-11x
General Sylvana
-1----3-3-3--3-3--23
1x
Jüngerer Zwillingsgeneral
---1--3-3----2-33-33
1-2x
Älterer Zwillingsgeneral
-1----3--3---323--33
 
1x
Champion Anslem
1-----31-32--2-3--33
1-3x
Champion Vargus
-1----32-3---3-3--33
1-8x
Geisterhafte Generälin
-1----3123---3-3--23
1-15x
General Sylvana
-1----3-3-3--3-3--23
2-4x
Jüngerer Zwillingsgeneral
---1--3-3----2-33-33
1x
Älterer Zwillingsgeneral
-1----3--3---323--33
Klicks: 0 - 0 - 376
erstellt: 04.08.2022 - 12:07
Update: 04.08.2022 - 12:13
 
jonnyhopp@web.de: Aladin und die schöne Prinzessin - nur das Nötigste
keine Bewertung vorhanden
- Schwierigkeit
- Angaben
- Grafik
- Verständnis
6x
Tavernen-General
---1------23--333-33
1x
Champion Nusala
---1--31-32---23--33
3x
Champion Vargus
-1----32-3---3-3--33
1-6x
Geisterhafte Generälin
-1----3123---3-3--23
1-11x
General Sylvana
-1----3-3-3--3-3--23
1x
Jüngerer Zwillingsgeneral
---1--3-3----2-33-33
1-2x
Älterer Zwillingsgeneral
-1----3--3---323--33
Klicks: 0 - 0 - 542
erstellt: 27.06.2021 - 11:21
Update: 04.08.2022 - 12:13
Versionen:
0-2x
Tavernen-General
---1------23--333-33
1x
Champion Nusala
---1--31-32---23--33
1-2x
Champion Vargus
-1----32-3---3-3--33
1-19x
Geisterhafte Generälin
-1----3123---3-3--23
2-4x
Jüngerer Zwillingsgeneral
---1--3-3----2-33-33
1-3x
Älterer Zwillingsgeneral
-1----3--3---323--33
1-2x
Tavernen-General
---1------23--333-33
1x
Champion Nusala
---1--31-32---23--33
1-2x
Champion Vargus
-1----32-3---3-3--33
1-5x
Geisterhafte Generälin
-1----3123---3-3--23
1-16x
Mary Christmas
-1----3-3-3--3-3--23
1-4x
Jüngerer Zwillingsgeneral
---1--3-3----2-33-33
1-4x
Älterer Zwillingsgeneral
-1----3--3---323--33
1-4x
General Zitterbart
-1----3-3-3---33--23
 
jonnyhopp@web.de: Aladin und die Öllampe - nur das Nötigste
keine Bewertung vorhanden
- Schwierigkeit
- Angaben
- Grafik
- Verständnis
0-2x
Tavernen-General
---1------23--333-33
1x
Champion Nusala
---1--31-32---23--33
1-2x
Champion Vargus
-1----32-3---3-3--33
1-19x
Geisterhafte Generälin
-1----3123---3-3--23
2-4x
Jüngerer Zwillingsgeneral
---1--3-3----2-33-33
1-3x
Älterer Zwillingsgeneral
-1----3--3---323--33
Klicks: 1 - 0 - 327
erstellt: 02.08.2022 - 14:10
Update: 02.08.2022 - 14:12
 
jonnyhopp@web.de: Aladin und die Öllampe - für Punktesammler
keine Bewertung vorhanden
- Schwierigkeit
- Angaben
- Grafik
- Verständnis
1-2x
Tavernen-General
---1------23--333-33
1x
Champion Nusala
---1--31-32---23--33
1-2x
Champion Vargus
-1----32-3---3-3--33
1-5x
Geisterhafte Generälin
-1----3123---3-3--23
1-16x
Mary Christmas
-1----3-3-3--3-3--23
1-4x
Jüngerer Zwillingsgeneral
---1--3-3----2-33-33
1-4x
Älterer Zwillingsgeneral
-1----3--3---323--33
1-4x
General Zitterbart
-1----3-3-3---33--23
Klicks: 2 - 0 - 737
erstellt: 14.05.2021 - 12:16
Update: 02.08.2022 - 14:12
Versionen:
1x
Champion Anslem
1-----31-32--2-3--33
1-3x
Champion Vargus
-1----32-3---3-3--33
1-6x
Geisterhafte Generälin
-1----3123---3-3--23
1-3x
General Sylvana
-1----3-3-3--3-3--23
1-6x
Mary Christmas
-1----3-3-3--3-3--23
2-3x
Jüngerer Zwillingsgeneral
---1--3-3----2-33-33
1x
Standhafte Generalin
-1---23-23---31---33
1-4x
Älterer Zwillingsgeneral
-1----3--3---323--33
1x
General Zitterbart
-1----3-3-3---33--23
3x
Champion Vargus
-1----32-3---3-3--33
3x
General Sylvana
-1----3-3-3--3-3--23
6x
Mary Christmas
-1----3-3-3--3-3--23
3x
Jüngerer Zwillingsgeneral
---1--3-3----2-33-33
1x
Standhafte Generalin
-1---23-23---31---33
1x
Vermummter General
---1--3-3-2--3-3--33
1x
General Zitterbart
-1----3-3-3---33--23
3x
Champion Vargus
-1----32-3---3-3--33
4x
Geisterhafte Generälin
-1----3123---3-3--23
1x
General Boris
-1----3-3-3--3-3--23
2x
General Sylvana
-1----3-3-3--3-3--23
1-2x
Mary Christmas
-1----3-3-3--3-3--23
3x
Jüngerer Zwillingsgeneral
---1--3-3----2-33-33
1x
Standhafte Generalin
-1---23-23---31---33
1x
Vermummter General
---1--3-3-2--3-3--33
 
jonnyhopp@web.de: Ali Baba, der junge Holzfäller - Alternative Möglichkeiten
keine Bewertung vorhanden
- Schwierigkeit
- Angaben
- Grafik
- Verständnis
1x
Champion Anslem
1-----31-32--2-3--33
1-3x
Champion Vargus
-1----32-3---3-3--33
1-6x
Geisterhafte Generälin
-1----3123---3-3--23
1-3x
General Sylvana
-1----3-3-3--3-3--23
1-6x
Mary Christmas
-1----3-3-3--3-3--23
2-3x
Jüngerer Zwillingsgeneral
---1--3-3----2-33-33
1x
Standhafte Generalin
-1---23-23---31---33
1-4x
Älterer Zwillingsgeneral
-1----3--3---323--33
1x
General Zitterbart
-1----3-3-3---33--23
Klicks: 0 - 0 - 617
erstellt: 02.04.2022 - 11:24
Update: 02.04.2022 - 11:24
 
Klicks: 0 - 0 - 1129
erstellt: 13.06.2021 - 09:14
Update: 13.06.2021 - 09:14
 
3x
Champion Vargus
-1----32-3---3-3--33
3x
General Sylvana
-1----3-3-3--3-3--23
6x
Mary Christmas
-1----3-3-3--3-3--23
3x
Jüngerer Zwillingsgeneral
---1--3-3----2-33-33
1x
Standhafte Generalin
-1---23-23---31---33
1x
Vermummter General
---1--3-3-2--3-3--33
1x
General Zitterbart
-1----3-3-3---33--23
Klicks: 0 - 0 - 460
erstellt: 07.06.2021 - 19:04
Update: 07.06.2021 - 19:05
 
jonnyhopp@web.de: Holzfäller direkt aus der Landezone
keine Bewertung vorhanden
- Schwierigkeit
- Angaben
- Grafik
- Verständnis
3x
Champion Vargus
-1----32-3---3-3--33
4x
Geisterhafte Generälin
-1----3123---3-3--23
1x
General Boris
-1----3-3-3--3-3--23
2x
General Sylvana
-1----3-3-3--3-3--23
1-2x
Mary Christmas
-1----3-3-3--3-3--23
3x
Jüngerer Zwillingsgeneral
---1--3-3----2-33-33
1x
Standhafte Generalin
-1---23-23---31---33
1x
Vermummter General
---1--3-3-2--3-3--33
Klicks: 0 - 0 - 985
Kommentare: 1
erstellt: 18.03.2021 - 05:51
Update: 28.03.2021 - 10:27
Versionen:
1-2x
Champion Anslem
1-----31-32--2-3--33
1-2x
Champion Nusala
---1--31-32---23--33
1-5x
Champion Vargus
-1----32-3---3-3--33
1-12x
Geisterhafte Generälin
-1----3123---3-3--23
1-5x
General Sylvana
-1----3-3-3--3-3--23
1x
Jüngerer Zwillingsgeneral
---1--3-3----2-33-33
1x
Standhafte Generalin
-1---23-23---31---33
1x
Älterer Zwillingsgeneral
-1----3--3---323--33
1-2x
Champion Anslem
1-----31-32--2-3--33
2x
Champion Nusala
---1--31-32---23--33
1-3x
Champion Vargus
-1----32-3---3-3--33
1-11x
Geisterhafte Generälin
-1----3123---3-3--23
1-8x
General Sylvana
-1----3-3-3--3-3--23
1x
Jüngerer Zwillingsgeneral
---1--3-3----2-33-33
1-2x
Älterer Zwillingsgeneral
-1----3--3---323--33
1-2x
General Zitterbart
-1----3-3-3---33--23
2-6x
Tavernen-General
---1------23--333-33
1-3x
Champion Anslem
1-----31-32--2-3--33
2x
Champion Nusala
---1--31-32---23--33
1-3x
Champion Vargus
-1----32-3---3-3--33
1-11x
Geisterhafte Generälin
-1----3123---3-3--23
1-2x
Älterer Zwillingsgeneral
-1----3--3---323--33
 
1-2x
Champion Anslem
1-----31-32--2-3--33
1-2x
Champion Nusala
---1--31-32---23--33
1-5x
Champion Vargus
-1----32-3---3-3--33
1-12x
Geisterhafte Generälin
-1----3123---3-3--23
1-5x
General Sylvana
-1----3-3-3--3-3--23
1x
Jüngerer Zwillingsgeneral
---1--3-3----2-33-33
1x
Standhafte Generalin
-1---23-23---31---33
1x
Älterer Zwillingsgeneral
-1----3--3---323--33
Klicks: 2 - 0 - 430
erstellt: 23.07.2022 - 18:50
Update: 23.07.2022 - 18:51
 
1-2x
Champion Anslem
1-----31-32--2-3--33
2x
Champion Nusala
---1--31-32---23--33
1-3x
Champion Vargus
-1----32-3---3-3--33
1-11x
Geisterhafte Generälin
-1----3123---3-3--23
1-8x
General Sylvana
-1----3-3-3--3-3--23
1x
Jüngerer Zwillingsgeneral
---1--3-3----2-33-33
1-2x
Älterer Zwillingsgeneral
-1----3--3---323--33
1-2x
General Zitterbart
-1----3-3-3---33--23
Klicks: 3 - 0 - 628
erstellt: 18.05.2021 - 09:52
Update: 18.05.2021 - 09:54
 
2-6x
Tavernen-General
---1------23--333-33
1-3x
Champion Anslem
1-----31-32--2-3--33
2x
Champion Nusala
---1--31-32---23--33
1-3x
Champion Vargus
-1----32-3---3-3--33
1-11x
Geisterhafte Generälin
-1----3123---3-3--23
1-2x
Älterer Zwillingsgeneral
-1----3--3---323--33
Klicks: 1 - 0 - 534
erstellt: 03.04.2021 - 12:57
Update: 18.05.2021 - 09:54
 
jonnyhopp@web.de: Ali Baba und der Schatz des Wissens - blockfrei
keine Bewertung vorhanden
- Schwierigkeit
- Angaben
- Grafik
- Verständnis
1-9x
Champion Anslem
1-----31-32--2-3--33
1-4x
Champion Nusala
---1--31-32---23--33
1-10x
Champion Vargus
-1----32-3---3-3--33
1-15x
Geisterhafte Generälin
-1----3123---3-3--23
1-5x
General Sylvana
-1----3-3-3--3-3--23
1-2x
Meister der Kampfkunst
---1--3123---3-3--23
1-2147483647x
Standhafte Generalin
-1---23-23---31---33
1-6x
Älterer Zwillingsgeneral
-1----3--3---323--33
Klicks: 2 - 0 - 182
erstellt: 13.10.2022 - 16:56
Update: 13.10.2022 - 16:58
Versionen:
2-6x
Tavernen-General
---1------23--333-33
1-4x
Champion Anslem
1-----31-32--2-3--33
1-6x
Champion Vargus
-1----32-3---3-3--33
1-3x
Geisterhafte Generälin
-1----3123---3-3--23
1-8x
General Sylvana
-1----3-3-3--3-3--23
1x
Jüngerer Zwillingsgeneral
---1--3-3----2-33-33
0-1x
Verteidigungsmeister
---1------23--333-33
1-3x
Älterer Zwillingsgeneral
-1----3--3---323--33
1-2x
Champion Anslem
1-----31-32--2-3--33
1-9x
Champion Vargus
-1----32-3---3-3--33
1-6x
Geisterhafte Generälin
-1----3123---3-3--23
1-8x
General Sylvana
-1----3-3-3--3-3--23
1-4x
Älterer Zwillingsgeneral
-1----3--3---323--33
 
jonnyhopp@web.de: Ali Baba und der dritte Dieb
keine Bewertung vorhanden
- Schwierigkeit
- Angaben
- Grafik
- Verständnis
2-6x
Tavernen-General
---1------23--333-33
1-4x
Champion Anslem
1-----31-32--2-3--33
1-6x
Champion Vargus
-1----32-3---3-3--33
1-3x
Geisterhafte Generälin
-1----3123---3-3--23
1-8x
General Sylvana
-1----3-3-3--3-3--23
1x
Jüngerer Zwillingsgeneral
---1--3-3----2-33-33
0-1x
Verteidigungsmeister
---1------23--333-33
1-3x
Älterer Zwillingsgeneral
-1----3--3---323--33
Klicks: 1 - 0 - 136
erstellt: 08.10.2022 - 16:38
Update: 08.10.2022 - 16:40
 
jonnyhopp@web.de: Ali Baba und der dritte Dieb - geringe Verlust ohne Block
keine Bewertung vorhanden
- Schwierigkeit
- Angaben
- Grafik
- Verständnis
1-2x
Champion Anslem
1-----31-32--2-3--33
1-9x
Champion Vargus
-1----32-3---3-3--33
1-6x
Geisterhafte Generälin
-1----3123---3-3--23
1-8x
General Sylvana
-1----3-3-3--3-3--23
1-4x
Älterer Zwillingsgeneral
-1----3--3---323--33
Klicks: 1 - 0 - 541
erstellt: 24.05.2021 - 08:40
Update: 24.05.2021 - 08:44
 
jonnyhopp@web.de: Ali Baba und der der erste Dieb - Frauenpower - blockfrei
keine Bewertung vorhanden
- Schwierigkeit
- Angaben
- Grafik
- Verständnis
1-2x
Champion Nusala
---1--31-32---23--33
1-8x
Geisterhafte Generälin
-1----3123---3-3--23
1-8x
General Sylvana
-1----3-3-3--3-3--23
1-2x
Standhafte Generalin
-1---23-23---31---33
Klicks: 1 - 0 - 475
erstellt: 02.01.2022 - 12:57
Update: 02.01.2022 - 12:58
Versionen:
4-6x
Tavernen-General
---1------23--333-33
1x
Champion Nusala
---1--31-32---23--33
1-2x
Champion Vargus
-1----32-3---3-3--33
1-12x
Mary Christmas
-1----3-3-3--3-3--23
1-2x
Jüngerer Zwillingsgeneral
---1--3-3----2-33-33
1x
Standhafte Generalin
-1---23-23---31---33
4-6x
Tavernen-General
---1------23--333-33
1x
Champion Anslem
1-----31-32--2-3--33
1-2x
Champion Vargus
-1----32-3---3-3--33
1-3x
Geisterhafte Generälin
-1----3123---3-3--23
1-2x
Mary Christmas
-1----3-3-3--3-3--23
1-2x
Jüngerer Zwillingsgeneral
---1--3-3----2-33-33
1x
Älterer Zwillingsgeneral
-1----3--3---323--33
 
jonnyhopp@web.de: 2. Dieb - für Punktesammler
keine Bewertung vorhanden
- Schwierigkeit
- Angaben
- Grafik
- Verständnis
4-6x
Tavernen-General
---1------23--333-33
1x
Champion Nusala
---1--31-32---23--33
1-2x
Champion Vargus
-1----32-3---3-3--33
1-12x
Mary Christmas
-1----3-3-3--3-3--23
1-2x
Jüngerer Zwillingsgeneral
---1--3-3----2-33-33
1x
Standhafte Generalin
-1---23-23---31---33
Klicks: 1 - 0 - 1224
erstellt: 22.03.2021 - 17:05
Update: 28.03.2021 - 10:29
 
jonnyhopp@web.de: Ali Baba und der 2. Dieb - kurz und schmerzlos
keine Bewertung vorhanden
- Schwierigkeit
- Angaben
- Grafik
- Verständnis
4-6x
Tavernen-General
---1------23--333-33
1x
Champion Anslem
1-----31-32--2-3--33
1-2x
Champion Vargus
-1----32-3---3-3--33
1-3x
Geisterhafte Generälin
-1----3123---3-3--23
1-2x
Mary Christmas
-1----3-3-3--3-3--23
1-2x
Jüngerer Zwillingsgeneral
---1--3-3----2-33-33
1x
Älterer Zwillingsgeneral
-1----3--3---323--33
Klicks: 0 - 0 - 540
erstellt: 26.04.2021 - 07:19
Update: 26.04.2021 - 07:21
 
jonnyhopp@web.de: Am Fusse des Berges - blockfrei
keine Bewertung vorhanden
- Schwierigkeit
- Angaben
- Grafik
- Verständnis
2-3x
Champion Nusala
---1--31-32---23--33
1-14x
Champion Vargus
-1----32-3---3-3--33
1-9x
Geisterhafte Generälin
-1----3123---3-3--23
4-5x
General Sylvana
-1----3-3-3--3-3--23
1-7x
Jüngerer Zwillingsgeneral
---1--3-3----2-33-33
1-3x
Älterer Zwillingsgeneral
-1----3--3---323--33
Klicks: 1 - 0 - 743
erstellt: 12.05.2021 - 18:27
Update: 12.05.2021 - 18:28
 
jonnyhopp@web.de: Berglabyrinth - schnelles Spiel
keine Bewertung vorhanden
- Schwierigkeit
- Angaben
- Grafik
- Verständnis
1-3x
Champion Nusala
---1--31-32---23--33
1-8x
Champion Vargus
-1----32-3---3-3--33
1-2x
Einsamer General
---1--3--32--3-3--33
1-3x
General Sylvana
-1----3-3-3--3-3--23
1-11x
Jüngerer Zwillingsgeneral
---1--3-3----2-33-33
1x
Standhafte Generalin
-1---23-23---31---33
1-15x
Älterer Zwillingsgeneral
-1----3--3---323--33
Klicks: 1 - 0 - 645
erstellt: 14.07.2021 - 12:10
Update: 14.07.2021 - 12:12
 
jonnyhopp@web.de: Beutelschneider - Junge Zwillinge geben sich die Ehre
keine Bewertung vorhanden
- Schwierigkeit
- Angaben
- Grafik
- Verständnis
5-15x
Jüngerer Zwillingsgeneral
---1--3-3----2-33-33
Klicks: 1 - 0 - 265
erstellt: 28.08.2022 - 12:10
Update: 28.08.2022 - 12:10
 
jonnyhopp@web.de: Das Bergvolk - nur schnell das Nötigste
keine Bewertung vorhanden
- Schwierigkeit
- Angaben
- Grafik
- Verständnis
1x
Champion Nusala
---1--31-32---23--33
1-4x
Champion Vargus
-1----32-3---3-3--33
1x
Einsamer General
---1--3--32--3-3--33
4x
General Sylvana
-1----3-3-3--3-3--23
1-4x
Jüngerer Zwillingsgeneral
---1--3-3----2-33-33
1-7x
Älterer Zwillingsgeneral
-1----3--3---323--33
Klicks: 1 - 0 - 801
erstellt: 16.05.2021 - 11:28
Update: 16.05.2021 - 11:30
Versionen:
1-19x
Geisterhafte Generälin
-1----3123---3-3--23
1-19x
Älterer Zwillingsgeneral
-1----3--3---323--33
1-8x
Geisterhafte Generälin
-1----3123---3-3--23
1x
Jüngerer Zwillingsgeneral
---1--3-3----2-33-33
1-11x
Älterer Zwillingsgeneral
-1----3--3---323--33
 
jonnyhopp@web.de: Das Bonaberti-Problem - Geisterstunde
keine Bewertung vorhanden
- Schwierigkeit
- Angaben
- Grafik
- Verständnis
Packliste 230 430 1.915 420 80 1.295 4.370 Packliste 230 430 1.915 420 80 1.295 4.370
1-19x
Geisterhafte Generälin
-1----3123---3-3--23
Klicks: 2 - 0 - 1215
erstellt: 03.04.2022 - 12:19
Update: 03.04.2022 - 12:21
 
jonnyhopp@web.de: Das Bonaberti-Problem - und der ältere Zwilling
keine Bewertung vorhanden
- Schwierigkeit
- Angaben
- Grafik
- Verständnis
1-19x
Älterer Zwillingsgeneral
-1----3--3---323--33
Klicks: 2 - 0 - 233
erstellt: 10.09.2022 - 17:55
Update: 10.09.2022 - 17:56
 
jonnyhopp@web.de: Das Bonaberti-Problem - für Geister und älteren Zwilling
keine Bewertung vorhanden
- Schwierigkeit
- Angaben
- Grafik
- Verständnis
1-8x
Geisterhafte Generälin
-1----3123---3-3--23
1x
Jüngerer Zwillingsgeneral
---1--3-3----2-33-33
1-11x
Älterer Zwillingsgeneral
-1----3--3---323--33
Klicks: 3 - 0 - 2088
erstellt: 11.04.2021 - 07:49
Update: 01.04.2022 - 19:12
 
jonnyhopp@web.de: Der Chupacabra - "Die schnelle Nummer"
keine Bewertung vorhanden
- Schwierigkeit
- Angaben
- Grafik
- Verständnis
1x
Champion Anslem
1-----31-32--2-3--33
1-2x
Champion Nusala
---1--31-32---23--33
1x
Geisterhafte Generälin
-1----3123---3-3--23
2-9x
General Sylvana
-1----3-3-3--3-3--23
3-8x
Jüngerer Zwillingsgeneral
---1--3-3----2-33-33
1x
Älterer Zwillingsgeneral
-1----3--3---323--33
Klicks: 1 - 0 - 333
erstellt: 14.05.2022 - 13:05
Update: 14.05.2022 - 13:07
 
jonnyhopp@web.de: Der Überraschungsangriff - keine Verluste
keine Bewertung vorhanden
- Schwierigkeit
- Angaben
- Grafik
- Verständnis
Packliste 4.325 20 4.345 Packliste 4.325 20 4.345
1-12x
Champion Nusala
---1--31-32---23--33
10-19x
Jüngerer Zwillingsgeneral
---1--3-3----2-33-33
1-7x
Älterer Zwillingsgeneral
-1----3--3---323--33
Klicks: 1 - 0 - 27
erstellt: 21.01.2023 - 07:57
Update: 21.01.2023 - 08:00
 
3-8x
Jüngerer Zwillingsgeneral
---1--3-3----2-33-33
1x
Vermummter General
---1--3-3-2--3-3--33
Klicks: 1 - 0 - 1167
erstellt: 02.01.2022 - 12:54
Update: 02.01.2022 - 12:55
 
jonnyhopp@web.de: Die Nordmänner - Nur Armbrustschützen im Einsatz
keine Bewertung vorhanden
- Schwierigkeit
- Angaben
- Grafik
- Verständnis
1-4x
Champion Nusala
---1--31-32---23--33
3-6x
Jüngerer Zwillingsgeneral
---1--3-3----2-33-33
1-3x
Älterer Zwillingsgeneral
-1----3--3---323--33
Klicks: 1 - 0 - 489
erstellt: 02.06.2022 - 18:24
Update: 02.06.2022 - 18:24
 
jonnyhopp@web.de: Einen Schritt voraus - kurz und schmerzlos
Ø 4 bei 1 Bewertungen
- Schwierigkeit
- Angaben
- Grafik
- Verständnis
1-3x
Champion Vargus
-1----32-3---3-3--33
1-6x
Geisterhafte Generälin
-1----3123---3-3--23
1-7x
General Sylvana
-1----3-3-3--3-3--23
1-3x
Älterer Zwillingsgeneral
-1----3--3---323--33
Klicks: 4 - 0 - 1528
Kommentare: 2
erstellt: 02.05.2021 - 10:38
Update: 31.01.2023 - 20:44
 
Klicks: 1 - 0 - 431
erstellt: 12.02.2022 - 15:14
Update: 12.02.2022 - 15:14
 
jonnyhopp@web.de: Mehr einsame Experimente - Geisterstunde
keine Bewertung vorhanden
- Schwierigkeit
- Angaben
- Grafik
- Verständnis
1-19x
Geisterhafte Generälin
-1----3123---3-3--23
1-2x
General Sylvana
-1----3-3-3--3-3--23
2-4x
Jüngerer Zwillingsgeneral
---1--3-3----2-33-33
Klicks: 1 - 0 - 251
erstellt: 29.05.2022 - 13:24
Update: 29.05.2022 - 13:25
 
jonnyhopp@web.de: Piratenleben - Junge Zwillinge, kein Verlust
keine Bewertung vorhanden
- Schwierigkeit
- Angaben
- Grafik
- Verständnis
3-10x
Jüngerer Zwillingsgeneral
---1--3-3----2-33-33
Klicks: 1 - 0 - 269
erstellt: 05.08.2022 - 15:25
Update: 05.08.2022 - 15:25
 
jonnyhopp@web.de: Rasender Bulle - 6 junge Zwillinge mit Doppelherz - keine Verluste
keine Bewertung vorhanden
- Schwierigkeit
- Angaben
- Grafik
- Verständnis
Packliste 16 295 311 Packliste 16 295 311
0-6x
Tavernen-General
---1------23--333-33
2x
Champion Nusala
---1--31-32---23--33
1x
General Boris
-1----3-3-3--3-3--23
1x
General Sylvana
-1----3-3-3--3-3--23
6x
Jüngerer Zwillingsgeneral
---1--3-3----2-33-33
1x
Älterer Zwillingsgeneral
-1----3--3---323--33
Klicks: 0 - 0 - 660
erstellt: 17.03.2021 - 14:52
Update: 28.03.2021 - 10:35
Versionen:
2x
Champion Nusala
---1--31-32---23--33
1-8x
Geisterhafte Generälin
-1----3123---3-3--23
1-8x
Jüngerer Zwillingsgeneral
---1--3-3----2-33-33
1-40x
General Zitterbart
-1----3-3-3---33--23
 
2x
Champion Nusala
---1--31-32---23--33
1-8x
Geisterhafte Generälin
-1----3123---3-3--23
1-8x
Jüngerer Zwillingsgeneral
---1--3-3----2-33-33
Klicks: 1 - 0 - 751
erstellt: 28.04.2021 - 13:14
Update: 06.06.2022 - 08:25
 
jonnyhopp@web.de: Schießpulver - Zitterbert auf Punktejagd
keine Bewertung vorhanden
- Schwierigkeit
- Angaben
- Grafik
- Verständnis