Bonus-EP:
 
Wegklopper: Sindbad und die Seeschlange, COA, Boris, Locks
keine Bewertung vorhanden
- Schwierigkeit
- Angaben
- Grafik
- Verständnis
1x
Champion Anslem
-1---13--33--3-1--33
1x
Champion Vargus
-1---13--33--3-1--33
2x
Generalmajor
-1---13--33--3-1--33
2-4x
Veteran
--1---3---3--332--33
1x
Champion Nusala
---1--3---333--23--3
2-4x
Meister der Kampfkunst
---1--3-3--3---3-323
1-2x
Mary Christmas
--1---3--33--3-2--33
1x
Verrückter Wissenschaftler
-1---13--33--3-1--33
1x
Feldsanitätergeneral
-1---13--33--3-1--33
3x
Tavernen-General
---1--3---33---33-23
1x
Tavernen-General
-1----3----33--33-23
2x
Tavernen-General
-1----3--3-33--3--23
4x
Kampfgestählter General
---1--3----33--23-33
1x
General Boris
-1----3-33---3-3--23
Klicks: 0 - 0 - 1942
erstellt: 06.05.2019 - 18:42
Update: 13.05.2019 - 18:39
Taktikkartenbewertung:
bisher wurden keine Bewertungen abgegeben!
Boris wird hier auf der linken Seite eingesetzt. Er ersetzt insbesondere Vargus beim letzten Angriff, so dass dieser auch von einer vorgeschobenen Position direkt nach dem Angriff auf die Lager 46 - 50 gestartet werden kann.

13.05.19 Änderung der Aufstellung Lager 20+22 da falsch, danke an pAxabsurd für den Hinweis.

0 0 0 0 0 0 0 0 0 0 0 0 0 0 0 0 0 0 0 0